My Soul Longs For You by Jesus Culture

(/) Slide Up  (\) Slide Down  (h) Hammer On  (p) Pull Off  (b) Bend (r) Release (v) Vibrato

E|-----------------------------------------------
B|-----------------------------------------------
G|-----5-----5-----4--2-----5-----5-----4--2--0--
D|-----------------------------------------------
A|--0-----0-----0-----0--0-----0-----0-----0-----
E|-----------------------------------------------



E|-----------------------------------------------
B|-----------------------------------------------
G|-----------------------------------------------
D|-----5-----5-----3--2-----5-----5-----3--2-----
A|--3-----3-----3-----3--3-----3-----3-----3-----
E|-----------------------------------------------
http://www.guitartabcreator.com
Guitar Tab Creator is intended to store guitar tab created through the tool. It currently does not support in-line text editing. Any text you place in here will be lost. If you need to comment on your tab, please use the "Tab Notes" section located below.