Jimmy D

(/) Slide Up  (\) Slide Down  (h) Hammer On  (p) Pull Off  (b) Bend (r) Release (v) Vibrato


E|--5--5---------------------------------------------------------------------------------------
B|--6-----6-----6--8-------------------7----7--------4--------4--------4--------4--------4-----
G|--7--------7-----9-----9-------9-----7----7-----4--------4--------4--------4--------4--------
D|--5--------------7--7-------7-----7--7----7--6--------6--------6--------4--------4-----------
A|---------------------------------------------------------------------------------------------
E|---------------------------------------------------------------------------------------------



E|-----------------------------------------------------------
B|--------4--------4--------4--------4--------4--------------
G|-----4--------4--------5--------5--------5--------5--------
D|--4--------4--------3--------3--------3--------3-----3-----
A|-----------------------------------------------------------
E|-----------------------------------------------------------
http://www.guitartabcreator.com
Guitar Tab Creator is intended to store guitar tab created through the tool. It currently does not support in-line text editing. Any text you place in here will be lost. If you need to comment on your tab, please use the "Tab Notes" section located below.