Untitled

(/) Slide Up  (\) Slide Down  (h) Hammer On  (p) Pull Off  (b) Bend (r) Release (v) Vibrato


E|-----------
B|-------3-0-
G|-----------
D|---0-------
A|-----------
E|-3---3-----



E|-----------
B|-------0---
G|---------0-
D|-----------
A|---2-------
E|-0---0-----

http://www.guitartabcreator.com
Guitar Tab Creator is intended to store guitar tab created through the tool. It currently does not support in-line text editing. Any text you place in here will be lost. If you need to comment on your tab, please use the "Tab Notes" section located below.