Position 3

(/) Slide Up  (\) Slide Down  (h) Hammer On  (p) Pull Off  (b) Bend (r) Release (v) Vibrato



E|--------------------------------------2--3-----------------------------------------
B|--3--------------3--------5-----3--5-----------------3-----------------------------
G|--------2--4--5--------------5--------------------5-----5--4--2--4--5--4--2-----2--
D|-----5--------------5--5--------------------5--5-----------------------------5-----
A|-----------------------------------------------------------------------------------
E|-----------------------------------------------------------------------------------



E|--------------------------------------------------------2--3-----------------------
B|--------------------3--------------3--------5-----3--5-----------------3-----------
G|-----2--4-----4--2--------2--4--5--------------5--------------------5-----5--4--2--
D|--5--------5-----------5--------------5--5--------------------5--5-----------------
A|-----------------------------------------------------------------------------------
E|-----------------------------------------------------------------------------------



E|-----------------------------------
B|-----------------------------------
G|--4--5--4--2-----2--4--2-----2-----
D|--------------5-----------5-----5--
A|-----------------------------------
E|-----------------------------------

http://www.guitartabcreator.com
Guitar Tab Creator is intended to store guitar tab created through the tool. It currently does not support in-line text editing. Any text you place in here will be lost. If you need to comment on your tab, please use the "Tab Notes" section located below.