lilium

(/) Slide Up  (\) Slide Down  (h) Hammer On  (p) Pull Off  (b) Bend (r) Release (v) Vibrato


E|-----9----------------------|-----9---------------7------|--2--------------4--0-----|--
B|--7-----9--------10--10-----|--7-----9--------10-----10--|--------3--------------3--|--
G|--------------6-------------|--------------6-------------|-----2-----2--4-----------|--
D|-----------6-------------7--|-----------6----------------|--0-----------------------|--
A|--------8------------9------|--------8------------9------|--------------------------|--
E|----------------------------|----------------------------|--------------------------|--



E|--------------------------|---------------------7--|----------------------|--
B|--5--------------7--------|--------7-----9--10-----|--10----------10------|--
G|--------6-----------7--6--|--7--9------------------|----------11------10--|--
D|-----6-----6--8-----------|------------------------|------11----------11--|--
A|--4-----------9-----------|------------------------|------------------11--|--
E|--------------------------|--7--------8------------|--9---------------9---|--



E|-----9----------------------|-----9---------------7------|--2--------------4--0-----|--
B|--7-----9--------10--10-----|--7-----9--------10-----10--|--------3--------------3--|--
G|--------------6-------------|--------------6-------------|-----2-----2--4-----------|--
D|-----------6-------------7--|-----------6----------------|--0-----------------------|--
A|--------8------------9------|--------8------------9------|--------------------------|--
E|----------------------------|----------------------------|--------------------------|--



E|--------------------------|-----7-----------------------|--------------9--10---------10--|--
B|--5--------------7--------|--------10--9--7-------------|------11--12---------10--9------|--
G|--------6-----------7--6--|--7---------------10--8--10--|--11----------------------------|--
D|-----6-----6--8-----------|-----------------------------|-----------------9--------------|--
A|--4-----------9-----------|----------------------8------|--9----------------------7------|--
E|--------------------------|--7-----8------9-------------|--------------------------------|--



E|--9--12----------8-------------|----------------------|--
B|---------10--14--7--10--9------|--10----------10------|--
G|--9--------------8---------11--|----------11------10--|--
D|--7--------------7-------------|------11----------11--|--
A|---------9---12---------8------|------------------11--|--
E|-------------------------------|--9---------------9---|--



E|-----9----------------------|-----9---------------7------|--2--------------4--0-----|--
B|--7-----9--------10--10-----|--7-----9--------10-----10--|--------3--------------3--|--
G|--------------6-------------|--------------6-------------|-----2-----2--4-----------|--
D|-----------6-------------7--|-----------6----------------|--0-----------------------|--
A|--------8------------9------|--------8------------9------|--------------------------|--
E|----------------------------|----------------------------|--------------------------|--



E|--------------------------|-----7-----------------------|----------------------|--
B|--5--------------7--------|--------10--9--7-------------|--------------12--10--|--
G|--------6-----------7--6--|--7---------------10--8--10--|--11------11------11--|--
D|-----6-----6--8-----------|-----------------------------|------11----------11--|--
A|--4-----------9-----------|----------------------8------|--9---------------9---|--
E|--------------------------|--7-----8------9-------------|----------------------|--



E|----------9-------------10--9--|--7---------|--
B|--10--12--------10--12---------|-----10--9--|--
G|-------------9-----------------|---------9--|--
D|-------------------------------|---------9--|--
A|----------0-------------11-----|--9------7--|--
E|-------------------------------|------------|--



E|----------9---------11------9--|--9--------------|--
B|--10--12--------10------12-----|-------------10--|--
G|-------------9------9----------|---------11------|--
D|-------------------------------|-----11----------|--
A|--9---11--0--------------------|--9--------------|--
E|-------------------------------|-----------------|--



E|----------9-------------10--9--|------9-----------------|--
B|--10--12--------10--12---------|--12------10--9--10--7--|--
G|-------------9-----------------|----------11--9------7--|--
D|-------------------------------|------11------9------7--|--
A|----------0-------------11-----|--9-----------7------5--|--
E|-------------------------------|------------------------|--



E|--4--5--9---12--11------9-------|---------------14----------|--
B|--------10----------12--10------|-----------------------15--|--
G|--------9---------------11--11--|--9----------------14------|--
D|----------------9-------11------|-----11--9-----0-----------|--
A|--------0---------------9-------|---------------------------|--
E|--------------------------------|------------0--------------|--



E|--14--12--10--9-----11------9--|-----------------------------|--
B|------------------------12-----|---------10--9--10--9-----7--|--
G|-----------------9-------------|--11--9---------11--9--9--7--|--
D|--------------7-----9----------|----------------11--9-----7--|--
A|----------------------------9--|----------------9---7-----5--|--
E|------12-----------------------|-----------------------------|--



E|--5--7--9---12--11------9---|-------------------------------|--
B|--------10------12--12--10--|--10--9---------10--9----------|--
G|--------9-------11------11--|---------9--11---------9---11--|--
D|----------------------------|----------------11--9----------|--
A|--------9-------11------9---|-----------------------11--12--|--
E|----------------------------|-------------------------------|--



E|-------------9--|--
B|-----11--12-----|--
G|----------------|--
D|----------------|--
A|----------------|--
E|--9-------------|--



E|-10------------------10-----|-9------12---------------9-------|---
B|----7---10-----9--------9---|---10------10---10---------10----|---
G|-9----7----7-----9--------9-|------9-------9----11---------11-|---
D|-------------9-----9--------|----------------------11---------|---
A|---------------7------------|-0--------------9----------------|---
E|----------------------------|---------------------------------|---



E|-8------------------------|----------------------------------------|-
B|---7---10-----9-----7-----|-10-------10-------10-------12----------|-
G|-----8----8-----8-----8---|----11-------11-------11-------11----10-|-
D|-7----------7-----7-----7-|-------11-------11-------11-------11-11-|-
A|--------------------------|-9-----------------------------------11-|-
E|--------------------------|-------------------------------------9--|-



E|-----9----------------------|-----9---------------7------|--2--------------4--0-----|--
B|--7-----9--------10--10-----|--7-----9--------10-----10--|--------3--------------3--|--
G|--------------6-------------|--------------6-------------|-----2-----2--4-----------|--
D|-----------6-------------7--|-----------6----------------|--0-----------------------|--
A|--------8------------9------|--------8------------9------|--------------------------|--
E|----------------------------|----------------------------|--------------------------|--



E|--------------------------|-----7-----------------------|------|--
B|--5--------------7--------|--------10--9--7-------------|------|--
G|--------6-----------7--6--|--7---------------10--8--10--|--11--|--
D|-----6-----6--8-----------|-----------------------------|------|--
A|--4-----------9-----------|----------------------8------|--9---|--
E|--------------------------|--7-----8------9-------------|------|--
http://www.guitartabcreator.com
Guitar Tab Creator is intended to store guitar tab created through the tool. It currently does not support in-line text editing. Any text you place in here will be lost. If you need to comment on your tab, please use the "Tab Notes" section located below.