Tecnologia Ignorante

(/) Slide Up  (\) Slide Down  (h) Hammer On  (p) Pull Off  (b) Bend (r) Release (v) Vibrato


E|-----------------------------|-----------------------------|---------------------------------
B|-----------------------------|-----------------------------|---------------------------------
G|-----------------------------|-----------------------------|---------------------------------
D|-----------------------------|-----------------------------|---------------------------------
A|-----------------------------|-----------------------------|---------------------------------
E|--0--0--12--0--0--12--0--12--|--0--0--12--0--0--12--0--12--|--0--0--12--12--0--0--12--12--0--



E|-------------------------|-----------------------------------------------------|----------------
B|-------------------------|-----------------------------------------------------|----------------
G|-------------------------|-----------------------------------------------------|----------------
D|-------------------------|-----------------------------------------------------|----------------
A|-------------------------|-----------------------------------------------------|----------------
E|--0--12--12--3--3--2--2--|--0--0--12--0--0--12--0--12--8--8--8--8--8--9--8--9--|--0--0--12--12--



E|------------------------------------------|-----------------------------------------------------|--
B|------------------------------------------|-----------------------------------------------------|--
G|------------------------------------------|-----------------------------------------------------|--
D|------------------------------------------|-----------------------------------------------------|--
A|------------------------------------------|-----------------------------------------------------|--
E|--0--0--12--12--0--0--12--12--3--3--2--2--|--0--0--12--0--0--12--0--12--8--8--8--8--8--9--8--9--|--



E|--------------------------------------------------------|--
B|--------------------------------------------------------|--
G|--------------------------------------------------------|--
D|--------------------------------------------------------|--
A|--------------------------------------------------------|--
E|--0--0--12--0--0--12--0--12--8--9--8--9--8--9--8--9--0--|--
http://www.guitartabcreator.com
Guitar Tab Creator is intended to store guitar tab created through the tool. It currently does not support in-line text editing. Any text you place in here will be lost. If you need to comment on your tab, please use the "Tab Notes" section located below.