L'importante è la salute

(/) Slide Up  (\) Slide Down  (h) Hammer On  (p) Pull Off  (b) Bend (r) Release (v) Vibrato


E|-------------|-------------|---------------------------------------------------------------------
B|-------------|-------------|---------------------------------------------------------------------
G|-------------|-------------|---------------------------------------------------------------------
D|-------------|-------------|---------------------------------------------------------------------
A|-------------|-------------|----------11--------------------------------------11-----------------
E|--12--11--9--|--12--11--9--|--12--12------12--12--11--11--12--11--12--12--12------12--12--11-----



E|-------------|-------------|---------------------------------------------------------------------
B|-------------|-------------|---------------------------------------------------------------------
G|-------------|-------------|---------------------------------------------------------------------
D|-------------|-------------|---------------------------------------------------------------------
A|-------------|-------------|---------------------------------------------------------------------
E|--11--11--9--|--12--11--9--|--12--12--11--12--12--11--12--11--12--12--12--11--12--12--11--11-----



E|---------|-------------|----------------------------------------------------------|-------------
B|---------|-------------|----------------------------------------------------------|-------------
G|---------|-------------|----------------------------------------------------------|-------------
D|---------|-------------|----------------------------------------------------------|-------------
A|---------|-------------|----------11-----------------------11---------------------|-------------
E|--11--9--|--12--11--9--|--12--12------12--9--9--0--12--12------12--9--9--0--3--0--|--12--11-----



E|--------|--
B|--------|--
G|--------|--
D|--------|--
A|--------|--
E|--3--0--|--
http://www.guitartabcreator.com
Guitar Tab Creator is intended to store guitar tab created through the tool. It currently does not support in-line text editing. Any text you place in here will be lost. If you need to comment on your tab, please use the "Tab Notes" section located below.