La fin dal Mund

(/) Slide Up  (\) Slide Down  (h) Hammer On  (p) Pull Off  (b) Bend (r) Release (v) Vibrato


E|-----------|-----------|-----------|-----------|-----------|-----------|--------|--------------
B|-----------|-----------|-----------|-----------|-----------|-----------|--------|--------------
G|-----------|-----------|-----------|-----------|-----------|-----------|--------|--------------
D|-----------|-----------|-----------|-----------|-----------|-----------|--------|--------------
A|-----------|-----------|--6--3-----|-----------|--6--3-----|-----------|--------|--------------
E|--1--5--8--|--5--8--1--|--------5--|--1--5--8--|--------5--|--0--0--0--|--3--2--|--0--0--2-----



E|--------------|--------------------------|--------------------|--------------------------|--
B|--------------|--------------------------|--------------------|--------------------------|--
G|--------------|--------------------------|--------------------|--------------------------|--
D|--------------|--------------------------|--------------------|--------------------------|--
A|--------------|--------------------------|--6--6--6--3--3--3--|--------------------------|--
E|--2--3--3--5--|--0--0--2--5--0--0--3--5--|--------------------|--0--0--2--5--0--0--3--5--|--



E|--------------------|--------------------------|--------------------------------------------
B|--------------------|--------------------------|--------------------------------------------
G|--------------------|--------------------------|--------------------------------------------
D|--------------------|--------------------------|--------------------------------------------
A|--6--6--6--3--3--3--|--------------------------|--------------------------------------------
E|--------------------|--0--0--2--5--0--0--3--5--|--------------------------------------------
http://www.guitartabcreator.com
Guitar Tab Creator is intended to store guitar tab created through the tool. It currently does not support in-line text editing. Any text you place in here will be lost. If you need to comment on your tab, please use the "Tab Notes" section located below.