ex

(/) Slide Up  (\) Slide Down  (h) Hammer On  (p) Pull Off  (b) Bend (r) Release (v) Vibrato


E|------------|----------------------|---------------|------------------|--------------------|-----
B|------------|----------------------|---------------|------------------|--------1--------1--|-----
G|------------|----------------------|---------------|------------------|--------------2-----|-----
D|------------|----------------------|---------------|------------------|-----2-----2--------|-----
A|------------|----------14--13--12--|---------------|------------------|--3-----------------|-----
E|--7--4--11--|--11--11--------------|--11--9--7--6--|--11--14--16--14--|--------------------|-----



E|-----------|------------------|------
B|-----------|------------------|------
G|-----------|------------------|------
D|-----------|------------------|------
A|-----------|------------------|------
E|--9--7--6--|--11--14--16--14--|--11--
http://www.guitartabcreator.com
Guitar Tab Creator is intended to store guitar tab created through the tool. It currently does not support in-line text editing. Any text you place in here will be lost. If you need to comment on your tab, please use the "Tab Notes" section located below.