Cyclette

(/) Slide Up  (\) Slide Down  (h) Hammer On  (p) Pull Off  (b) Bend (r) Release (v) Vibrato

Stave 1:

E|-------------------------|--------------------------------------|----------------------------------
B|-------------------------|--------------------------------------|----------------------------------
G|-------------------------|--------------------------------------|----------------------------------
D|-------------------------|--------------------------------------|----------------------------------
A|-------------------------|--------------------------------------|----------------------------------
E|--7--10--11--3--7--8--7--|--7--12--7--12--7--12--7--12--13--12--|--7--12--7--12--7--12--7--12--12--

Stave 2:

E|----------------------------------------------|--------------|--------------|--------------|--------
B|----------------------------------------------|--------------|--------------|--------------|--------
G|----------------------------------------------|--------------|--------------|--------------|--------
D|----------------------------------------------|--------------|--------------|--------------|--------
A|----------------------------------------------|--------------|--------------|--------------|--------
E|--13--12--13--12--13--13--13--13--13--13--13--|--12--15--14--|--12--15--14--|--12--15--14--|--------

Stave 3:

E|--------------|--------------|----------------------------|-----------------------------------
B|--------------|--------------|----------------------------|-----------------------------------
G|--------------|--------------|----------------13--12--10--|-----------------------------------
D|--------------|--------------|-----0--10--12--------------|--0--10--12--0--10--12--0--10--12--
A|--------------|--------------|----------------------------|-----------------------------------
E|--12--15--14--|--12--15--14--|----------------------------|-----------------------------------

Stave 4:

E|--------------|--
B|--------------|--
G|--13--12--10--|--
D|--------------|--
A|--------------|--
E|--------------|--

http://www.guitartabcreator.com
Guitar Tab Creator is intended to store guitar tab created through the tool. It currently does not support in-line text editing. Any text you place in here will be lost. If you need to comment on your tab, please use the "Tab Notes" section located below.