Bonas_m

(/) Slide Up  (\) Slide Down  (h) Hammer On  (p) Pull Off  (b) Bend (r) Release (v) Vibrato


E|--------------------------|------------------------|--------------------------|--------------------
B|--------------------------|------------------------|--------------------------|--------------------
G|--------------------------|------------------------|--------------------------|--------------------
D|--------------------------|------------------------|--------------------------|--------------------
A|--9--8--9--8--9--8--9--8--|--12--11--9--12--11--9--|--9--8--9--8--9--8--9--8--|--------------------
E|--------------------------|------------------------|--------------------------|--1--3--5--1--3--5--



E|--------------------|------------------------|-----------|--------------------------|--------------
B|--------------------|------------------------|-----------|--------------------------|--------------
G|--------------------|------------------------|-----------|--------------------------|--------------
D|--------------------|------------------------|-----------|--------------------------|--------------
A|--------------------|--12--11--9--12--11--9--|-----------|--9--8--9--8--9--8--9--8--|------14--13--
E|--1--3--5--1--3--0--|------------------------|--1--3--0--|--------------------------|--11----------



E|------|---------------------------------------------|--------------------------|--------------------
B|------|---------------------------------------------|--------------------------|--------------------
G|------|---------------------------------------------|--------------------------|--------------------
D|------|---------------------------------------------|--------------------------|--------------------
A|--12--|---------------------------------------------|--9--8--9--8--9--8--9--8--|--12--11--9--12-----
E|------|--11--9--7--11--9--7--11--9--7--11--9--3--0--|--------------------------|--------------------



E|-------------------------------------------------|-------------|-----------------------------------
B|-------------------------------------------------|-------------|-----------------------------------
G|-------------------------------------------------|-------------|-----------------------------------
D|-------------------------------------------------|-------------|-----------------------------------
A|--11--9--12--14--16--14--12--12--14--16--14--12--|--12--11--9--|-----------------------------------
E|-------------------------------------------------|-------------|--1--3--0--0--0--0--9--0--9--0--9--



E|--------------|-----------------------|--------------------------|-----------------------------|--|--
B|--------------|-----------------------|--------------------------|-----------------------------|--|--
G|--------------|--------8--------5-----|--------8--------5--------|-----------------------------|--|--
D|--------------|-----8--------5--------|-----8--------5-----------|-----------------------------|--|--
A|--------------|--6--------3-----------|--6--------3--------------|--9--8--9--8--9--8--9--8-----|--|--
E|--0--9--0--9--|--------------------9--|--------------------1--3--|--------------------------0--|--|--
http://www.guitartabcreator.com
Guitar Tab Creator is intended to store guitar tab created through the tool. It currently does not support in-line text editing. Any text you place in here will be lost. If you need to comment on your tab, please use the "Tab Notes" section located below.