sick solo new song

(/) Slide Up  (\) Slide Down  (h) Hammer On  (p) Pull Off  (b) Bend (r) Release (v) Vibrato






C#|----------------------------------------------17-19-21-22-22-22-21-21-21-19-19-17-17-17-15-15-15
G#|-------------------------------------17-19-20---------------------------------------------------
E |----------------------------16-18-19------------------------------------------------------------
B |-------------------16-17-19---------------------------------------------------------------------
F |-14-16-17-16-17-19------------------------------------------------------------------------------
C#|------------------------------------------------------------------------------------------------



C#|-14-14-14-14h15p14----------------------------------------------
G#|-------=----------15/17-14-16-17-16-17-19-17-19-20-20hb-20-19-19
E |----------------------------------------------------------------
B |----------------------------------------------------------------
F |----------------------------------------------------------------
C#|----------------------------------------------------------------



C#|----------12h15p12-----------------14h17p14-----------------15h19p15------15h19p15------19hb--19
G#|--------13--------13-------------15--------15-------------17--------17--17--------17--17--------
E |------12------------12---------14------------14---------16------------16------------16----------
B |----14----------------14/16--16----------------16/17--17----------------------------------------
F |--15-----------------------17-----------------------19------------------------------------------
C#|------------------------------------------------------------------------------------------------



C#|--------------------------15h17h19T20p19p17p15---------------------------17h19h21T22p21p19p17
G#|------------------15h17h19--------------------T19----------------17h19h20--------------------T21
E |----------14h16h17---------------------------------------16h17h19-------------------------------
B |--14h16h17---------------------------------------16h17h19---------------------------------------
F |------------------------------------------------------------------------------------------------
C#|------------------------------------------------------------------------------------------------



C#|--19-17-15--15----15h19p15------15h19p15h19p15---------14h17p14------14h17p14h17p14----
G#|----------19----17--------17--17--------------17-----15--------15--15--------------15--
E |--------------16------------16------------------16-14------------14------------------14
B |---------------------------------------------------------------------------------------
F |---------------------------------------------------------------------------------------
C#|---------------------------------------------------------------------------------------



C#|------12h15p12------12h15p12h15p12---------14h17p14------14h17p14----
G#|----13--------13--13--------------13-----15--------15--15--------15--
E |--12------------12------------------12-14------------14------------14
B |---------------------------------------------------------------------
F |---------------------------------------------------------------------
C#|---------------------------------------------------------------------


C#|------15h19p15------15h19p15h19p15------15h20p15------15h20p15h20p15----
G#|----17--------17--17--------------17--17--------17--17--------------17--
E |--16------------16------------------16------------16------------------16
B |------------------------------------------------------------------------
F |------------------------------------------------------------------------
C#|------------------------------------------------------------------------



C#|------12h15p12------12h15p12h15p12---------14h17p14------14h17p14h17p14------14h17T21p17p14T22
G#|----13--------13--13--------------13-----15--------15--15--------------15--15-----------------
E |--12------------12------------------12-14------------14------------------14-------------------
B |----------------------------------------------------------------------------------------------
F |----------------------------------------------------------------------------------------------
C#|----------------------------------------------------------------------------------------------



C#|----------14h15h17T22p17p15p14T22p17p15p14T22p17p15p14T21p17p15p14T21p17p15p14T21p17p15p14
G#|--14h15h17--------------------------------------------------------------------------------
E |------------------------------------------------------------------------------------------
B |------------------------------------------------------------------------------------------
F |------------------------------------------------------------------------------------------
C#|------------------------------------------------------------------------------------------
Goes with next riff x4


C#|--T19p17p15p14T19p17p15p14T19p17p15p14T21p17p15p14T21p17p15p14T21p17p15p14
G#|--------------------------------------------------------------------------
E |--------------------------------------------------------------------------
B |--------------------------------------------------------------------------
F |--------------------------------------------------------------------------
C#|--------------------------------------------------------------------------
x4




C#|--17-15-14------------------------------------------
G#|----------17-15-14----------------------------------
E |------------------16-14-12-11-----------------------
B |-----------------------------14-12-11---------------
F |-------------------------------------14-12-10-9-----
C#|-----------------------------------------------12-10/

End






http://www.guitartabcreator.com
Guitar Tab Creator is intended to store guitar tab created through the tool. It currently does not support in-line text editing. Any text you place in here will be lost. If you need to comment on your tab, please use the "Tab Notes" section located below.