new song solo

(/) Slide Up  (\) Slide Down  (h) Hammer On  (p) Pull Off  (b) Bend (r) Release (v) Vibrato
C#|----------------------------------------------17-19-21-
G#|-------------------------------------17-19-20----------
E |----------------------------16-18-19-------------------
B |-------------------16-17-19----------------------------
F |-14-16-17-16-17-19-------------------------------------
C#|-------------------------------------------------------



C#|-22-22-22-21-21-21-19-19-19-17-17-17-15-15-15-14-14-14-14h15p14-----
G#|---------------------------------------------------------------15/17
E |--------------------------------------------------------------------
B |--------------------------------------------------------------------
F |--------------------------------------------------------------------
C#|--------------------------------------------------------------------
http://www.guitartabcreator.com
Guitar Tab Creator is intended to store guitar tab created through the tool. It currently does not support in-line text editing. Any text you place in here will be lost. If you need to comment on your tab, please use the "Tab Notes" section located below.