new song

(/) Slide Up  (\) Slide Down  (h) Hammer On  (p) Pull Off  (b) Bend (r) Release (v) Vibrato
E|---------0-----------0-----------0-----------0-----------0-----------0-----------0-----------0-----
B|-----6-----6-----6-----6-----6-----6-----6-----6-----6-----6-----6-----6-----6-----6-----6-----6---
G|-7-7---7-----7-7---7-----5-5---5-----5-5---5-------------------------------------------------------
D|-------------------------------------------------7-7---7-----7-7---7-----5-5---5-----5-5---5-------
A|---------------------------------------------------------------------------------------------------
E|---------------------------------------------------------------------------------------------------



E|---------|-
B|---------|-
G|-5h7-7-7-|-
D|---------|-
A|---------|-
E|---------|-



E|--0--0--0--0--|--
B|--6--6--x--x--|--
G|--7--5--3--2--|--
D|--7--7--5--3--|--
A|--5--7--5--0--|--
E|--0--------0--|--



E|---------0-----------0-----------0-----------0-----------0-----------0-----------0-----------0---
B|-----6-----6-----6-----6-----6-----6-----6-----6-----6-----6-----6-----6-----6-----6-----6-----6-
G|-7-7---7-----7-7---7-----5-5---5-----5-5---5-----------------------------------------------------
D|-------------------------------------------------7-7---7-----7-7---7-----5-5---5-----5-5---5-----
A|-------------------------------------------------------------------------------------------------
E|-------------------------------------------------------------------------------------------------



E|-----------
B|-----------
G|-5-7-7-7---
D|-----------
A|-----------
E|-----------



E|-------------------------------------------------------------------|-
B|-------------------------------------------------------------------|-
G|-------------------------------------------------------------------|-
D|-8-8-8--8-8-8-8-8-8-8-8--10-10--0-0-0--0-0-0-0-0-0-0--3-3-3--5-5-5-|-
A|-8-8-8--8-8-8-8-8-8-8-8--8--8---0-0-0--0-0-0-0-0-0-0--3-3-3--5-5-5-|-
E|-8-8-8--8-8-8-8-8-8-8-8--8--8---0-0-0--0-0-0-0-0-0-0--3-3-3--5-5-5-|-



E|--------------5-----------------8--------------------8---------------------8----------------------12------|--
B|--------6--------6--------6--------6----------8---------8----------10---------10----------13----------13--|--
G|--7--7-----7--------9--9-----9--------10--10-----10--------10--10------10---------10--10------10----------|--
D|----------------------------------------------------------------------------------------------------------|--
A|----------------------------------------------------------------------------------------------------------|--
E|----------------------------------------------------------------------------------------------------------|--



E|--12--|--
B|--13--|--
G|--10--|--
D|--0---|--
A|------|--
E|------|--




http://www.guitartabcreator.com
Guitar Tab Creator is intended to store guitar tab created through the tool. It currently does not support in-line text editing. Any text you place in here will be lost. If you need to comment on your tab, please use the "Tab Notes" section located below.