new slow song

(/) Slide Up  (\) Slide Down  (h) Hammer On  (p) Pull Off  (b) Bend (r) Release (v) Vibrato


E|-------------------------------------------------------------|-
B|-------------------------------------------------------------|-
G|-----0-------0-------0-------0-------0-------0---0---0---0---|-
D|---4---4---5---5---7---7---9---9---7---7---5---5---5---5---4-|-
A|-2-------3-------5-------7-------5-------3-------------------|-
E|-------------------------------------------------------------|-



E|-----------------------------------------------
B|-----------------------------------------------
G|----------0----------0---------0---------0-----
D|----12------12---7-----7---9-----9---5-----5/7-
A|-10----10------5---5-----7---7-----3---3-------
E|-----------------------------------------------
http://www.guitartabcreator.com
Guitar Tab Creator is intended to store guitar tab created through the tool. It currently does not support in-line text editing. Any text you place in here will be lost. If you need to comment on your tab, please use the "Tab Notes" section located below.