new melodic riff

(/) Slide Up  (\) Slide Down  (h) Hammer On  (p) Pull Off  (b) Bend (r) Release (v) Vibrato


E|-----------------------------------------------------------------
B|-----------------------------------------------------------------
G|---------0-----------0-----------0-----------0-------------------
D|-----4-----4-----4-----4-----4-----4-----4-----4---------0---7/9-
A|---5---5-------5---5-------5---5-------5---5-----------4---4-----
E|-0-----------0-----------0-----------0-----------0-3-7-----------



E|-------------------------------------------------------
B|-------------------------------0h8h12h15p12p8-8--8--8--
G|------------------------0h7h11----------------11-11-11-
D|------------------0h5h9--------------------------------
A|------------0h5h9--------------------------------------
E|-0-0--0h5h8--------------------------------------------
http://www.guitartabcreator.com
Guitar Tab Creator is intended to store guitar tab created through the tool. It currently does not support in-line text editing. Any text you place in here will be lost. If you need to comment on your tab, please use the "Tab Notes" section located below.