miles away

(/) Slide Up  (\) Slide Down  (h) Hammer On  (p) Pull Off  (b) Bend (r) Release (v) Vibrato


E|-------------------------|-------------------
B|-------3-------7-------8-|-------3-------7---
G|-----0-------0-------0---|-----0-------0---0-
D|---0-------4-------0-----|---0-------4-----4-
A|-2-------5-------7-------|-2-------5-------3-
E|-------------------------|-------------------



E|----------------|--------------------------------------------------------------------
B|----5--------8--|--------------------------------------------------------------------
G|----4--------11-|--------------------------------------------------------------------
D|--2-2-----------|-2-2-2-2-2-2-5-5-5-5-5-5-0-0-0-0-0-0-0-0-0-0-0-0--------------------
A|--2-2--0-0-0----|-2-2-2-2-2-2-2-2-2-2-2-2-0-0-0-0-0-0-0-0-0-0-0-0--------------------
E|--2-2--0-0-0-0--|-2-2-2-2-2-2-2-2-2-2-2-2-0-0-0-0-0-0-0-0-0-0-0-0-0--0--0-0--0--0--0-



E|-----------------------------------------------
B|---------------8---------8---------------------
G|---------------11--------11--------0-----------
D|-----------------------------------x-5-3-------
A|--------0h9h10----0h9h10-----------9-5-3-------
E|-0h9h10---------------------0h9h10---5-3-2b2r2-
http://www.guitartabcreator.com
Guitar Tab Creator is intended to store guitar tab created through the tool. It currently does not support in-line text editing. Any text you place in here will be lost. If you need to comment on your tab, please use the "Tab Notes" section located below.