closure

(/) Slide Up  (\) Slide Down  (h) Hammer On  (p) Pull Off  (b) Bend (r) Release (v) Vibrato
Closure
Drop B

C#|--------------
G#|--------------
E |--------------
B |--12--17--16--
F#|--10--14--12--
B |--10--14--12-- x2



C#|----------------
G#|----------------
E |----------------
B |--5--9--10--12--
F#|--5--5--10--12--
B |--5--5--10--12-- x1



C#|------------------------------------
G#|------------------------------------
E |------------------------------------
B |--5--9--10--12--12--12--12--12--12--
F#|--5--5--10--12--12--12--12--12--12--
B |--5--5--10--12--12--12--12--12--12-- x1



C#|--------------------------------------------
G#|--------------------------------------------
E |--------------------------------------------
B |--12--17--16---------12---------12--12--16--
F#|--10--14--12--9--10------9--10------10--12--
B |--10--14--12------------------------10--12-- x1



C#|--------------
G#|--------------
E |--------------
B |--12--17--16--
F#|--10--14--12--
B |--10--14--12-- x3



C#|----------------
G#|----------------
E |----------------
B |--9--9--10--12--
F#|--5--9--10--12--
B |--5--9--10--12-- x3



C#|-----
G#|-----
E |-----
B |--9--
F#|--5--
B |--5-- End
http://www.guitartabcreator.com
Guitar Tab Creator is intended to store guitar tab created through the tool. It currently does not support in-line text editing. Any text you place in here will be lost. If you need to comment on your tab, please use the "Tab Notes" section located below.