Zorro Dance

(/) Slide Up  (\) Slide Down  (h) Hammer On  (p) Pull Off  (b) Bend (r) Release (v) Vibrato


E|--------------------------------------------------------------------------------------------
B|--2-----1--------------------1--------1--------1--1-----2--1--------------------------------
G|-----3-----3--1--------1--3-----1--3-----1--3--------1--------3-----1--3-----1--3-----1--3--
D|-----------------5--3--------------------------------------------5--------5--------5--------
A|--------------------------------------------------------------------------------------------
E|--------------------------------------------------------------------------------------------



E|--------------------------------------------------------------------------------------------
B|--------1-----------------------------------------------------------------------------6-----
G|--3--------3--1--------5--------5--------5--5-----6--5--------------------5--------------5--
D|-----5-----------6--8-----6--8-----6--8--------6--------8--5--6--8--8--5-----8--6--6--------
A|--------------------------------------------------------------------------------------------
E|--------------------------------------------------------------------------------------------



E|--------------------------------------------------------------6--8-----6--8-----6--8--8-----
B|-----------------------------------------------------------9--------9--------9-----------9--
G|-----------------------------3-----------3--------3--3--------------------------------------
D|--8--6--5-----6--5--------3-----5-----3-----5-----------5-----------------------------------
A|-----------7--------8--8-----------3-----------3--------------------------------------------
E|--------------------------------------------------------------------------------------------



E|--9--8--6--8--9--11--8--9--11--8--9--11--11--8------11--9--
B|------------------------------------------------11---------
G|-----------------------------------------------------------
D|-----------------------------------------------------------
A|-----------------------------------------------------------
E|-----------------------------------------------------------
http://www.guitartabcreator.com
Guitar Tab Creator is intended to store guitar tab created through the tool. It currently does not support in-line text editing. Any text you place in here will be lost. If you need to comment on your tab, please use the "Tab Notes" section located below.