Freaking Out The Neighbourhood

(/) Slide Up  (\) Slide Down  (h) Hammer On  (p) Pull Off  (b) Bend (r) Release (v) Vibrato

E|-----9-----9-----9--6-----------6----------------14b16b14--12--11----9--7--
B|--9-----9-----9--------7-----7-----7--7/9----------------------------------
G|--------------------------8------------------------------------------------
D|---------------------------------------------------------------------------
A|---------------------------------------------------------------------------
E|---------------------------------------------------------------------------



E|-----9-----9-----9--6-----------6------------------------------------------
B|--9-----9-----9--------7-----7-----7--7/9--------14b16b14--12--11----9--7--
G|--------------------------8------------------------------------------------
D|---------------------------------------------------------------------------
A|---------------------------------------------------------------------------
E|---------------------------------------------------------------------------



E|-----9-----9-----9--6-----------6-------------------------------
B|--9-----9-----9--------7-----7-----7--7b9--------9--9--9--9--9--
G|--------------------------8-------------------------------------
D|----------------------------------------------------------------
A|----------------------------------------------------------------
E|----------------------------------------------------------------

http://www.guitartabcreator.com
Guitar Tab Creator is intended to store guitar tab created through the tool. It currently does not support in-line text editing. Any text you place in here will be lost. If you need to comment on your tab, please use the "Tab Notes" section located below.