when im with you (reprise)

(/) Slide Up  (\) Slide Down  (h) Hammer On  (p) Pull Off  (b) Bend (r) Release (v) Vibrato

E|--------------------------------------------------
B|-----1-----3-----1-----3-----1-----3-----1-----3--
G|--------------------------------------------------
D|--------------------------------------------------
A|--3-----3-----0-----0-----------------------------
E|--------------------------1-----1-----3-----3-----



E|--------------------------------------------------------------
B|-----1-----3-----1-----1-----3-----1--1-----1-----3-----1-----
G|--------------------------------------------------------------
D|--------------------------------------------------------------
A|--3-----3-----3-----2-----2-----2--------1-----1-----1--------
E|-----------------------------------------------------------1--



E|--------------0--------------0--------------0--------------
B|-----------1--------------1--------------1--------------0--
G|--------0--------------0--------------0--------------1-----
D|-----2--------------0--------------2--------------2--------
A|--3--------------2--------------0--------------2-----------
E|-----------------------------------------------------------
http://www.guitartabcreator.com
Guitar Tab Creator is intended to store guitar tab created through the tool. It currently does not support in-line text editing. Any text you place in here will be lost. If you need to comment on your tab, please use the "Tab Notes" section located below.