A Lic # 2

(/) Slide Up  (\) Slide Down  (h) Hammer On  (p) Pull Off  (b) Bend (r) Release (v) Vibrato


E|----------------------------------------------|--12b14--12--10--8/9------|--
B|---------10--12--12/13\12--10--12---------10--|----------------------10--|--
G|--10/11----------------------------9--11------|--------------------------|--
D|----------------------------------------------|--------------------------|--
A|----------------------------------------------|--------------------------|--
E|----------------------------------------------|--------------------------|--



E|--------------------------5--
B|--10--8-----7----------------
G|---------9-----8--7--5/6-----
D|-----------------------------
A|-----------------------------
E|-----------------------------
http://www.guitartabcreator.com
Guitar Tab Creator is intended to store guitar tab created through the tool. It currently does not support in-line text editing. Any text you place in here will be lost. If you need to comment on your tab, please use the "Tab Notes" section located below.