G Blues Lic #2

(/) Slide Up  (\) Slide Down  (h) Hammer On  (p) Pull Off  (b) Bend (r) Release (v) Vibrato


E|----------------------------
B|----------------------------
G|----------------------------
D|--5--3-----------5----------
A|--------5--4--3-----1/2-----
E|-------------------------3--



E|----------------------------
B|--8--6-----------8----------
G|--------7--6--5-----3/4-----
D|-------------------------5--
A|----------------------------
E|----------------------------
http://www.guitartabcreator.com
Guitar Tab Creator is intended to store guitar tab created through the tool. It currently does not support in-line text editing. Any text you place in here will be lost. If you need to comment on your tab, please use the "Tab Notes" section located below.