A blues Lic #9

(/) Slide Up  (\) Slide Down  (h) Hammer On  (p) Pull Off  (b) Bend (r) Release (v) Vibrato


E|--------------------------
B|--------------------------
G|--5-----4-----------------
D|-----7-----7--5-----5--7--
A|-----------------7--------
E|--------------------------



E|--8------7-------------------
B|-----10-----10--8-----8--10--
G|-------------------9---------
D|-----------------------------
A|-----------------------------
E|-----------------------------
http://www.guitartabcreator.com
Guitar Tab Creator is intended to store guitar tab created through the tool. It currently does not support in-line text editing. Any text you place in here will be lost. If you need to comment on your tab, please use the "Tab Notes" section located below.