A blues Lic #8

(/) Slide Up  (\) Slide Down  (h) Hammer On  (p) Pull Off  (b) Bend (r) Release (v) Vibrato


E|---------------------12--10--
B|-------------10--13----------
G|--9--10--11------------------
D|-----------------------------
A|-----------------------------
E|-----------------------------



E|---------------------
B|---------------------
G|---------------9--7--
D|-----7-----10--------
A|--9-----9------------
E|---------------------
http://www.guitartabcreator.com
Guitar Tab Creator is intended to store guitar tab created through the tool. It currently does not support in-line text editing. Any text you place in here will be lost. If you need to comment on your tab, please use the "Tab Notes" section located below.