A blues Lic #7

(/) Slide Up  (\) Slide Down  (h) Hammer On  (p) Pull Off  (b) Bend (r) Release (v) Vibrato

E|------------8--------------------------------------
B|--10--8--------10--8-------8--10-------------------
G|---------9------------7/9---------9\7--5-----------
D|------------------------------------------7--5--7--
A|---------------------------------------------------
E|---------------------------------------------------



E|-----------------
B|-------10-----8--
G|--7/9------9-----
D|-----------------
A|-----------------
E|-----------------



E|------------------------------------------------------
B|--8--7--5-----5---------------------------------------
G|-----------7-----7--5/6-------------------------------
D|-------------------------7--5-----4-----2----------7--
A|-------------------------------7-----6-----5--3/4-----
E|------------------------------------------------------
http://www.guitartabcreator.com
Guitar Tab Creator is intended to store guitar tab created through the tool. It currently does not support in-line text editing. Any text you place in here will be lost. If you need to comment on your tab, please use the "Tab Notes" section located below.