A blues Lic #6

(/) Slide Up  (\) Slide Down  (h) Hammer On  (p) Pull Off  (b) Bend (r) Release (v) Vibrato


E|--15------------------------------|--15------------------------------|-----
B|------17--15------15--------------|------17--15------15--------------|-----
G|--------------16------16--14------|--------------16------16--14------|-----
D|------------------------------17--|------------------------------17--|-----
A|----------------------------------|----------------------------------|-----
E|----------------------------------|----------------------------------|-----



E|----------------------------|---------------------
B|---------17---------17------|------------------5--
G|----------------------------|--4b6--4--2--4/6-----
D|--17/18------17/18------18--|---------------------
A|----------------------------|---------------------
E|----------------------------|---------------------
http://www.guitartabcreator.com
Guitar Tab Creator is intended to store guitar tab created through the tool. It currently does not support in-line text editing. Any text you place in here will be lost. If you need to comment on your tab, please use the "Tab Notes" section located below.