Remains to be seen

(/) Slide Up  (\) Slide Down  (h) Hammer On  (p) Pull Off  (b) Bend (r) Release (v) Vibrato

Stave 1:

E|----------------------------------
B|----------------------------------
G|----------------------------------
D|----------------------------------
A|-----8--7--10--9--12--11--15--14--
E|--0-------------------------------

Stave 2:

E|------------------------------------
B|------------------------------------
G|------------------------------------
D|------------------------------------
A|-----10--9--12--11--15--14--17--16--
E|--0---------------------------------

Stave 3:

E|-----------------------------------------------------------------------------------
B|-----------------------------------------------------------------------------------
G|-----------------------------------------------------------------------------------
D|-----10--9-----9-----------------------------------10--9-----9-----------------12--
A|-----8---7-----7-----------------------------------8---7-----7-----------------10--
E|--0---------0-----0--0--0--0--0--0--0--0--0--0--0---------0-----0--0--0--0--0------

Stave 4:

E|----------
B|----------
G|----------
D|------12--
A|--10------
E|----------

http://www.guitartabcreator.com
Guitar Tab Creator is intended to store guitar tab created through the tool. It currently does not support in-line text editing. Any text you place in here will be lost. If you need to comment on your tab, please use the "Tab Notes" section located below.