remains 2

(/) Slide Up  (\) Slide Down  (h) Hammer On  (p) Pull Off  (b) Bend (r) Release (v) Vibrato

Stave 1:

E|------------------------------------------------
B|------------------------------------------------
G|------------------------------------------------
D|------------------------------------------------
A|--8--8--8--8--8--8--8--10--7--7--7--7--7--7--7--
E|------------------------------------------------

Stave 2:

E|------------------------------------------------------------------------------------------------------
B|------------------------------------------------------------------------------------------------------
G|------------------------------------------------------------------------------------------------------
D|------------------------------------------------------------------------------------------------------
A|--10--10--10--10--10--10--10--12--9--9--9--9--9--9--9--12--8--8--8--8--8--8--10--7--7--7--7--7--7-----
E|------------------------------------------------------------------------------------------------------

Stave 3:

E|---------------------------------|------------------------------------------------------------------
B|---------------------------------|------------------------------------------------------------------
G|---------------------------------|------------------------------------------------------------------
D|--9--------10--9--7--------5--4--|--9--------10--9--------------4--4--4--4--5--5--5--5--7--7--7--7--
A|--7--7--7--7---7--7--7--7--7--5--|--7--7--7--7---7--7--7--7--7--------------------------------------
E|---------------------------------|------------------------------------------------------------------

Stave 4:

E|------------------------------------|--------------------------------------------------------
B|------------------------------------|--------------------------------------------------------
G|------------------------------------|--------------------------------------------------------
D|--4--------5--4----4--------5--3----|--4--------5--4-----------------------------------------
A|--2--2--2--2--2----2--2--2--2-------|--2--2--2--2--2--5--5--5--5--4--4--4--4--2--2--2--2--0--
E|------------------------------------|--------------------------------------------------------

Stave 5:

E|-----------------------------------------------|---------------------------------
B|-----------------------------------------------|---------------------------------
G|-----------------------------------------------|---------------------------------
D|--7--9--9--9--10--9--7--9------------9---------|--7--9--9--9--10--9--7--9--------
A|--5--7--7--7--8---7--5--7--0--9--10-----10--9--|--5--7--7--7--8---7--5--7--7--8--
E|-----------------------------------------------|---------------------------5--6--

Stave 6:

E|--------------------------------------------------------
B|--------------------------------------------------------
G|--------------------------------------------------------
D|--4--4--4--4--5--4--4--4--------------------------------
A|--0--2--2--2--3--2--0--2--0--5--5--5--5--4--4--4--4--0--
E|--------------------------------------------------------

Stave 7:

E|--------------------------------
B|--------------------------------
G|--------------------------------
D|--4--4--4--4--5--4--4--4--------
A|--0--2--2--2--3--2--0--2--2--3--
E|--------------------------0--1--

http://www.guitartabcreator.com
Guitar Tab Creator is intended to store guitar tab created through the tool. It currently does not support in-line text editing. Any text you place in here will be lost. If you need to comment on your tab, please use the "Tab Notes" section located below.