prelude to a scream

(/) Slide Up  (\) Slide Down  (h) Hammer On  (p) Pull Off  (b) Bend (r) Release (v) Vibrato

Stave 1:

E|-----------------------------------------------------------------------------------
B|-----------0--------------------0--------------------0--------------------0--------
G|--------0-----0--------------0-----0--------------0-----0--------------0-----0-----
D|-----2-----------2--------2-----------2--------2-----------2--------2--------------
A|--2-----------------2--3-----------------3--4-----------------4--3--------------3--
E|-----------------------------------------------------------------------------------

Stave 2:

E|--------------------------------------------
B|-----------0--------------------------------
G|--------2-----2-----------0--------0--------
D|-----2-----------2-----2--------2--------2--
A|--0-----------------3--------2--------1-----
E|--------------------------------------------

Stave 3:

E|-----------0-----------------0-----------------0--------------------------------------------------------------------------------------
B|--------0-----0-----------0-----0-----------0--------------------------------------------------------------------------------------0--
G|-----0-----------0-----0-----------0-----0--------------------------------------------------------------------------------------------
D|--2-----------------3-----------------4-----------------------------------------------------------------------------------------------
A|--------------------------------------------------------------------------------------------------------------------------------------
E|--------------------------------------------------------------------------------------------------------------------------------------

Stave 4:

E|-----------0-----------------0-----------------0--------------------------
B|--------0-----0-----------0-----0-----------0-----0-----------0--------0--
G|-----0-----------0-----0-----------0-----0-----------0-----0--------0-----
D|--2-----------------3-----------------4-----------------5--------4--------
A|--------------------------------------------------------------------------
E|--------------------------------------------------------------------------

Stave 5:

E|-----------0-----------------0-----------------0--------------------------
B|--------0-----0-----------0-----0-----------0-----0-----------0--------0--
G|-----0-----------0-----0-----------0-----0-----------0-----0--------0-----
D|--2-----------------3-----------------4-----------------5--------7--------
A|--------------------------------------------------------------------------
E|--------------------------------------------------------------------------

Stave 6:

E|--
B|--
G|--
D|--
A|--
E|--

http://www.guitartabcreator.com
Guitar Tab Creator is intended to store guitar tab created through the tool. It currently does not support in-line text editing. Any text you place in here will be lost. If you need to comment on your tab, please use the "Tab Notes" section located below.