horror land 1

(/) Slide Up  (\) Slide Down  (h) Hammer On  (p) Pull Off  (b) Bend (r) Release (v) Vibrato

Stave 1:

E|--------------------------------------------------------------------------
B|--------------------------------------------------------------------------
G|-----------0--------------------------------------------------------------
D|--------2-----2-----------2--3--2--------------5--4-----------5--------4--
A|-----2-----------2-----3-----------3-----4--5--------5-----4--------3-----
E|--0-----------------1-----------------2-----------------3--------2--------

Stave 2:

E|--------------------------------------------------------------------------
B|--------------------------------------------------------------------------
G|-----------0--------------------------------------------------------------
D|--------2-----2-----------2--3--2--------------5--4-----------5--------7--
A|-----2-----------2-----3-----------3-----4--5--------5-----4--------6-----
E|--0-----------------1-----------------2-----------------3--------5--------

Stave 3:

E|------------------------------------------------------------------------------
B|------------------------------------------------------------------------------
G|------------------------------------------------------------------------------
D|------------------------------------------------------------------------------
A|------------------------------------------------------------------------------
E|--0--0--0--0--0--0--1--1--1--1--1h3--1--2--2--2--2--2--2--2--3--3--3--5--5--5\

http://www.guitartabcreator.com
Guitar Tab Creator is intended to store guitar tab created through the tool. It currently does not support in-line text editing. Any text you place in here will be lost. If you need to comment on your tab, please use the "Tab Notes" section located below.