Horror Land 2

(/) Slide Up  (\) Slide Down  (h) Hammer On  (p) Pull Off  (b) Bend (r) Release (v) Vibrato

Stave 1:

E|--------------------------------------------------------------------------
A|--------------------------------------------------------------------------
D|--------------------------------------------------------------------------
G|--------------------------------------------------------2--1--------------
B|--------------------------------------------------------------2--3--2--0--
E|--0--0--0--0--0--0--0--0--0--3--2--1--0--0--0--0--0--0--------------------

Stave 2:

E|--------------------------------------------------------------------------------
A|--------------------------------------------------------------------------------
D|--------------------------------------------------------------------------------
G|--------------------------------------------------------------------------------
B|--------------4-----------------4--3--2--------------5-----------------6--5--4--
E|--2--2--2--2-----2--2--2--2--2-----------3--3--3--3-----3--3--3--3--3-----------

Stave 3:

E|---------------------------------------------------------------------------
A|---------------------------------------------------------------------------
D|---------------------------------------------------------------------------
G|---------------------------------------------------------------------------
B|--------------7-----------------7--6--5--------------9--------9--7--9--10--
E|--5--5--5--5-----5--5--5--5--5-----------7--7--7--7-----7--7---------------

Stave 4:

E|--------------------------------------------------------------------------------
A|--------------------------------------------------------------------------------
D|--------------------------------------------------------------------------------
G|--------------------------------------------------------------------------------
B|--------------------------------0--0--0--------------------------------2--2--2--
E|--0--0--0--0--1--0--1--3--1--0-----------0--0--0--0--1--0--1--3--1--0-----------

http://www.guitartabcreator.com
Guitar Tab Creator is intended to store guitar tab created through the tool. It currently does not support in-line text editing. Any text you place in here will be lost. If you need to comment on your tab, please use the "Tab Notes" section located below.