sleeping dogs

(/) Slide Up  (\) Slide Down  (h) Hammer On  (p) Pull Off  (b) Bend (r) Release (v) Vibrato

E|--------------------------------
B|--------------------------------
G|--------------------------------
D|--------------------------------
A|-----2-----2--0--------7-----7--
E|--0-----0--------3--5-----5-----



E|--------------------------------
B|--------------------------------
G|--------------------------------
D|--------------------------------
A|-----2-----2--0--------9-----9--
E|--0-----0--------3--7-----7-----



E|--------------------------------
B|--------------------------------
G|--------------------------------
D|--------------------------------
A|-----2-----2--0--------7-----7--
E|--0-----0--------3--5-----5-----



E|-----------------------------
B|-----------------------------
G|-----------------------------
D|-----------------------------
A|-----2-----9-----2--0--------
E|--0-----7-----0--------3--0--



E|--------------------------------------------------
B|--------------------------------------------------
G|--------------------------------------------------
D|--------------------------------------------------
A|-----2-----2-----9-----9-----7-----7-----9-----9--
E|--0-----0-----7-----7-----5-----5-----7-----7-----
http://www.guitartabcreator.com
Guitar Tab Creator is intended to store guitar tab created through the tool. It currently does not support in-line text editing. Any text you place in here will be lost. If you need to comment on your tab, please use the "Tab Notes" section located below.