Mary did you know

(/) Slide Up  (\) Slide Down  (h) Hammer On  (p) Pull Off  (b) Bend (r) Release (v) Vibrato

E|----------3--2--2-----0--0-----0----------------0-----
B|--5-------5--3--3-----1--1--3--1--------0-------0-----
G|--4-------------------------4--------2-----0-------2--
D|-----2-------------0----------------------------------
A|----------------------------------0-------------------
E|--0---------------------------------------------------



E|----------------------------------------------------------------------------------------
B|--------------0--------------------0-----------------3----------------------------0-----
G|--------0--2-----------0--------------2-----0-----------0-------------0--------2--------
D|--2--4--------------2-----------2--------4-----4-----------4--2----4--------2-----------
A|-----------------2-----------2--------5-----------5-----------0----------0--------------
E|--------------0-----------0-------------------------------------------------------------



E|-----------------------0-----------------2--3--2--------------------------
B|-----------0-----0--3--------------1-----------------------3-----------3--
G|--------2-----------------------0-----------------------2-----------2-----
D|-----1-----------------------2-----------------------4-----------4--------
A|--2-----------2-----------3-----------3-----------5-----------5-----------
E|--------------------------------------------------------------------------



E|-----------------------0--------------------------------------------------------------
B|--0--------0--------3--------------1-----------0--1--0--------------------0-----------
G|--0-----2--------2--------------0-----------0-----2-----2--------0--2--------2--------
D|-----0-----------0-----------2-----------2--------------------2-----------------2-----
A|--------------------------3-----------3-----------0--------0-----------0-----------0--
E|--3-----------2-----------------------------------------------------------------------



E|--------------------------2--
B|-----0--------0--------------
G|--2--2-----2-----------2-----
D|-----1--1-----------1--------
A|-----2-----------2-----------
E|-----------------------------
http://www.guitartabcreator.com
Guitar Tab Creator is intended to store guitar tab created through the tool. It currently does not support in-line text editing. Any text you place in here will be lost. If you need to comment on your tab, please use the "Tab Notes" section located below.