La Califfa

(/) Slide Up  (\) Slide Down  (h) Hammer On  (p) Pull Off  (b) Bend (r) Release (v) Vibrato


E|-------------------------------------0----2-------0--2--3--0--2--------------------------
B|--3----3----3----3----3----3----3---------3----------------------3-----------------2--3--
G|------------6----6----4----2----0----0---------2----------------------2----2-------------
D|------------------------------------------0----------0----------------4----4----4--------
A|-----------------------------------------------------------4-----2---------0-------------
E|-----------------------------------------------------------------------------------------



E|--7--5--3---------5--7--5----------------5----10------------------9----------------------7-----
B|--------3----3----3-----3----3-----2-----2----7---7--7---------7-----7--7-------------5-----5--
G|--------4----4----4-----2----2--2-----2--2-----------7---------------------9--9----9-----------
D|------------------------0----0-----4-----4--------------9--11-----------9-----9----9-----------
A|-----------------------------------4----------9------------------------------------------------
E|--3-----3----3----3---------------------------7------------------------------------------------



E|--
B|--
G|--
D|--
A|--
E|--
http://www.guitartabcreator.com
Guitar Tab Creator is intended to store guitar tab created through the tool. It currently does not support in-line text editing. Any text you place in here will be lost. If you need to comment on your tab, please use the "Tab Notes" section located below.