Gabriels oboe 2

(/) Slide Up  (\) Slide Down  (h) Hammer On  (p) Pull Off  (b) Bend (r) Release (v) Vibrato

E|------------------------------------------------------------------------------------------
B|-------------------------3p5p3p2p3p2--0--------0--2-----2-----3--5p3p2p3p2--0----------0--
G|--2p4p2p0p2-----------2--2------------0-----2-----2-----2-----2-------------0-----0h2-----
D|--4----------------2---------------------0--------2--2-----2--0----------------0----------
A|--0----------5-----------2------------------------0---------------------------------------
E|--0-------------2---------------------5-----------------------4-------------5-------------



E|----------------------------------------------------------------------------2-------------
B|--3--2h3p2--0--------------------------7-----5-----5\3--3-----3--------3----------5--5p3--
G|---------------2--------------4--6--7-------------------------------0---------------------
D|------------------2----/4--5--7--------7--7-----5----------------4-------------4----------
A|-----------------------------------------------------------4----------------2-------------
E|---------------------------------------0--------------------------------------------------



E|-------------------------------------------------------3--3-----2-----2--------2--2-----------
B|--2--3--------3----2--3--2h3p2p0--0-----------0--0--3--------3--------------3--------------3--
G|-----------4----------------------------0--2-----------------2-----2-----2--------------4-----
D|--------4----------------------------0--------------------0--------------------------4--------
A|-----0----------------------------------------------------------------4-----------2-----------
E|----------------------------------5-----------------------------------------------------------



E|--------7--7--------7-----------5--5-----------------3--2h3p2--0-----------0--------2--2--
B|--3--------7-----7-----5-----7-----5-----3--2--0---------------------0--2--------2-----2--
G|-----------0--0-----------0--------0--2--------0------------------2-----------2--------0--
D|-----4-----------------------------------------0--0---------------------------------------
A|--0--------------------------------0---------------------------0-----------------------1--
E|-----------5-----------------------------------5------------------------------------------



E|-----0--0-----------3-----2-----0--------0--0----------------------------------------------
B|-----2--3--------3--------0-----------3-----2----3--3-----------3----------7\5\3--3--------
G|--0-----------4--------0-----0-----0--------2----------------0-----0-----------------------
D|-----------4----------------------------------------------4-----------5/7------------------
A|--------2-----------------------0-----------0----------0-----------------------------------
E|--------------------5-------------------------------0-----------------------------0--------
http://www.guitartabcreator.com
Guitar Tab Creator is intended to store guitar tab created through the tool. It currently does not support in-line text editing. Any text you place in here will be lost. If you need to comment on your tab, please use the "Tab Notes" section located below.