Gabrielles oboe

(/) Slide Up  (\) Slide Down  (h) Hammer On  (p) Pull Off  (b) Bend (r) Release (v) Vibrato



E|-----------------------------------------------------------------------------------------
B|--3-----------3-------3-----------3------------7\5\3--3-----------3------------7/5/3-----
G|-----------0-----0-------------0-----0-------------------------0-----0-------------------
D|--------4-------------------4-------------5/7---------------4-------------5/7------------
A|-----0-------------------0-------------------------------0-------------------------------
E|--0-------------------0-------------------------------0----------------------------------



E|-------------------------------------5--------------------------------------------------
B|--3-----------3-------3-----------3-------------------------3--5--3--2h3--2--0----------
G|-----------0-----0-------------0----------2h4p2p0--2-----2--2----------------------2h4--
D|--------4-------------------4---------------------------------------------------0-------
A|-----0-------------------0----------------------------4-----2---------------------------
E|--0-------------------0-------------------0----------------------------------5----------



E|---------------0------------------------------------------------------------0--------------
B|--2---------3-----3--2h3--2--0-----------0--3--2--0-------------------7-----------5--------
G|--2---------2----------------------0--2--------------2-----0--2\4--6-----------------0-----
D|--2----2------------------------0-----------4--2--0--2--4----------------7-----5-----------
A|--0--------------------------------------------------0-----0-------------------------------
E|------------4----------------5----------------------------------------0--------------------



E|-------------------2-----0-----0-----------------------------------------------------
B|--3--3----------3--------------------3-----3----------2h3--2h3p2p0--0-----------0----
G|-----------2----------------------4--------------4------------------------0--2-------
D|--------4-------------4-----4-----------------4------------------------0-------------
A|-----4-------------2--------------------0--------------------------------------------
E|--------------------------------------------------------------------5----------------



E|--------3--3-----2----2--------2--2-----------------7--7--------7-----------5--
B|--0--3----------------------3--------------3--3--------7-----7-----5-----7-----
G|--------------2----------2--------------4--------------0--0-----------0--------
D|--0--4--2--0-------------------------4-----------4-----------------------------
A|----------------------4-----------2-----------0--------------------------------
E|-------------------------------------------------------5-----------------------



E|--------5\3-----3\2-----0--
B|---------------------------
G|-----6-------4-------2-----
D|---------------------------
A|--0------------------------
E|---------------------------
http://www.guitartabcreator.com http://www.guitartabcreator.com
Guitar Tab Creator is intended to store guitar tab created through the tool. It currently does not support in-line text editing. Any text you place in here will be lost. If you need to comment on your tab, please use the "Tab Notes" section located below.