We Are Young We Are Free - Adam Lee - Bass Tab

(/) Slide Up  (\) Slide Down  (h) Hammer On  (p) Pull Off  (b) Bend (r) Release (v) Vibrato

Half a step Down again.

Intro
E|--------------------------
B|--------------------------
G|--------------------------
D|--------------------------
A|-----3-----5-----3-----5--
E|--3-----0-----3-----0-----


Verse
E|--------------------------------------------------
B|--------------------------------------------------
G|--------------------------------------------------
D|--------------------------------------------------
A|-----3-----5-----3-----5-----3-----5-----3-----5--
E|--3-----0-----3-----0-----3-----0-----3-----0-----


Pre Chorus Thing
E|--------
B|--------
G|--------
D|--------
A|--3--5--
E|--------


Chorus
E|---------------------------------------------------------------
B|---------------------------------------------------------------
G|---------------------------------------------------------------
D|---------------------------------------------------------------
A|--3-----5--10--3-----7--5--10--3-----5--10--3--2-----7--5--10--
E|-----3------------3---------------3---------------3------------

Then.. Intro, Verse, Pre Chorus thing, Chorus


Bridge
E|-----------------------------------------------------------------
B|-----------------------------------------------------------------
G|-----------------------------------------------------------------
D|-----------------------------------------------------------------
A|--0-----3--5--0-----5--0-----3--5--0-----5--0-----3--5--0-----5--
E|-----3-----------3--------3-----------3--------3-----------3-----

Then everything cuts out to just guitar, but you can bass back in when it starts build back up again, up to you. Sort it in rehearsals.

Then.. Chorus X2 and finish on the intro
http://www.guitartabcreator.com
Guitar Tab Creator is intended to store guitar tab created through the tool. It currently does not support in-line text editing. Any text you place in here will be lost. If you need to comment on your tab, please use the "Tab Notes" section located below.