It's Worth It In The End - Adam Lee - Bass Tab

(/) Slide Up  (\) Slide Down  (h) Hammer On  (p) Pull Off  (b) Bend (r) Release (v) Vibrato

Half a step down again.

Come in on second verse.

Verse 2
E|-----------------
B|-----------------
G|-----------------
D|-----------------
A|--9-----9--------
E|-----7-----7-----


Chorus
E|--------------------------------------------------
B|--------------------------------------------------
G|--------------------------------------------------
D|--------------------------------------------------
A|--6--9--------6--9--------6--9--------6--9--------
E|--------7--9--------7--9--------7--9--------7--9--


Break
E|--------------------------------------
B|--------------------------------------
G|--------------------------------------
D|--------------------------------------
A|--9-----9-----6--9--------6--9--------
E|-----7-----7--------7--9--------7--9--


Break and into chorus (you'll get what I mean)
E|-----------------------------------------------------------------
B|-----------------------------------------------------------------
G|-----------------------------------------------------------------
D|-----------------------------------------------------------------
A|--9-----9--------6--9--------6--9--------6--9--------6--9--------
E|-----7-----7--9--------7--9--------7--9--------7--9--------7--9--




Ending bit
E|-----------------------------
B|-----------------------------
G|-----------------------------
D|-----------------------------
A|----9---------9--------------
E|---------7---------7----9----

Weird structured song, but hopefully you'll get it!
http://www.guitartabcreator.com
Guitar Tab Creator is intended to store guitar tab created through the tool. It currently does not support in-line text editing. Any text you place in here will be lost. If you need to comment on your tab, please use the "Tab Notes" section located below.