I Tell You All The Time - Adam Lee - Bass Tab

(/) Slide Up  (\) Slide Down  (h) Hammer On  (p) Pull Off  (b) Bend (r) Release (v) Vibrato

Half a step down still.

Come in on the second verse.

Verse 2
E|------------------------------------------------------------------
B|------------------------------------------------------------------
G|------------------------------------------------------------------
D|------------------------------------------------------------------
A|---------7----5----12----7----5---------7----5----12----7----5----
E|----5------------------------------5------------------------------


Pre Chorus Thing.
E|--------------
B|--------------
G|--------------
D|--------------
A|---------7----
E|----5---------


Chorus
E|----------------------------------------------------------------
B|----------------------------------------------------------------
G|----------------------------------------------------------------
D|----------------------------------------------------------------
A|----5---------7----5---------7----5---------7----5---------7----
E|---------5--------------5--------------5--------------5---------


Bridge
E|----------------------------------------------------------------------------
B|----------------------------------------------------------------------------
G|----------------------------------------------------------------------------
D|----------------------------------------------------------------------------
A|---5---12---7---5---12---7---5---12---7---5---12---7---5---12---7---5---7---
E|----------------------------------------------------------------------------

Then.. it cuts out to just acoustic guitar.

Then.. the chorus comes back in but there's a different vocal line at the end so it's a weird amount of times that it's played, but it's just the chorus notes played repeatedly. I think it's 6 times it's played instead of 4, so it's like 1 and a half chorus's and then cuts out to just acoustic guitar and vocals at the end, if that makes sense!

http://www.guitartabcreator.com
Guitar Tab Creator is intended to store guitar tab created through the tool. It currently does not support in-line text editing. Any text you place in here will be lost. If you need to comment on your tab, please use the "Tab Notes" section located below.