Adam Lee - On My Way - Bass Tab

(/) Slide Up  (\) Slide Down  (h) Hammer On  (p) Pull Off  (b) Bend (r) Release (v) Vibrato

Intro
E|-------------------------------------------------------
B|-------------------------------------------------------
G|-------------------------------------------------------
D|-------------------------------------------------------
A|-----3-----10-----5-----3-----3-----10-----5-----3-----
E|-------------------------------------------------------


Verse
E|---------------------------------------------------------------------------
B|---------------------------------------------------------------------------
G|---------------------------------------------------------------------------
D|---------------------------------------------------------------------------
A|---10---3---5---3---10---3---5---3---10---3---5---3---10---3---5---3-------
E|---------------------------------------------------------------------------


Pre Chorus
E|-----------------------------------------
B|-----------------------------------------
G|-----------------------------------------
D|-----------------------------------------
A|-----------5-----3-----7-----5-----3-----
E|-----0-----------------------------------


Chorus
E|-------------------------------------------------------------------
B|-------------------------------------------------------------------
G|-------------------------------------------------------------------
D|-------------------------------------------------------------------
A|---3-------5---3---3-------5---3---3-------5---3---3-------5---3---
E|-------3---------------3---------------3---------------3-----------

Then.. Intro, Verse, Pre Chorus, Chorus

Bridge
E|---------------------
B|---------------------
G|---------------------
D|---------------------
A|-----5--3--10--5--3--
E|--3------------------

Then.. Intro X2, Pre Chorus, Chorus

Then.. Intro X2
http://www.guitartabcreator.com
Guitar Tab Creator is intended to store guitar tab created through the tool. It currently does not support in-line text editing. Any text you place in here will be lost. If you need to comment on your tab, please use the "Tab Notes" section located below.