Autumn Leaves

(/) Slide Up  (\) Slide Down  (h) Hammer On  (p) Pull Off  (b) Bend (r) Release (v) Vibrato


E|----------------------------------------------------
B|----------------------------------------------------
G|----------------------------------------------------
D|------------10-----------9-----------7-----------5--
A|--7--9--10------5--7--9-----3--5--7-----2--4--6-----
E|----------------------------------------------------



E|------------------------------------------------------------------------
B|------------------------------------------------------------------------
G|------------------------------------------------------------------------
D|--4--7--5----------------------------------------------------12--10--9--
A|-----------7--6--7--9-----9--9--7--9--10--10--9--10--12-----------------
E|-----------------------7---------------------------------10-------------



E|------------------------------------------------------------
B|------------------------------------------------------------
G|------------------------------------------------------------
D|--8--9--10--10--7--7------10--9--9--------------------------
A|----------------------10------------7--12--10--9--10-----7--
E|------------------------------------------------------7-----
http://www.guitartabcreator.com
Guitar Tab Creator is intended to store guitar tab created through the tool. It currently does not support in-line text editing. Any text you place in here will be lost. If you need to comment on your tab, please use the "Tab Notes" section located below.