Delta Spirit - Parade

(/) Slide Up  (\) Slide Down  (h) Hammer On  (p) Pull Off  (b) Bend (r) Release (v) Vibrato
E|---------------2--0-------------------------------------
B|--2----2----2--------3--2--0----------------------------
G|--2----2----------------------2--4/6--6-----------------
D|--2----2------------------------------4-----------------
A|--0----0------------------------------4-----------------
E|--------------------------------------------------------



E|--------------------------------------2----------------
B|--2----2------------------------------2----------------
G|--2----2------------------------------3----------------
D|--2----2------------------------------4----------------
A|--0----0------------------------------4----------------
E|--------------------------------------2----------------



E|--------------------------------------------------------
B|-------------------------------------------------0------
G|---------------------7---------------------------0------
D|--2-------------------------------------2--------0------
A|--2------------------5------------------2---------------
E|--0-------------------------------------0--------3------
http://www.guitartabcreator.com
Guitar Tab Creator is intended to store guitar tab created through the tool. It currently does not support in-line text editing. Any text you place in here will be lost. If you need to comment on your tab, please use the "Tab Notes" section located below.