Licks and Riffs for lead guitar

(/) Slide Up  (\) Slide Down  (h) Hammer On  (p) Pull Off  (b) Bend (r) Release (v) Vibrato

Stave 1:

E|-----------------------------------
B|-------7---------------7-------10--
G|--7/9-----7/9-----7/9-----7/9------
D|---------------7-------------------
A|-----------------------------------
E|-----------------------------------

Stave 2:

E|---------10--12--10--9-------------10--9----------
B|--10/12-----------------12--10/12---------10------
G|----------------------------------------------11--
D|--------------------------------------------------
A|--------------------------------------------------
E|--------------------------------------------------

Stave 3:

E|--------------------------------------------------------------------------------------------------------
B|--------------------------------------------------------------------------------------------------------
G|--11--11--9--9r9--7--9--7--11--11--9--9--7--7--7--11--11--9--9r9--7--9--7--11--11-----------------------
D|--------------------------------------------------------------------------------------------------------
A|--------------------------------------------------------------------------------------------------------
E|--------------------------------------------------------------------------------------------------------

Stave 4:

E|------------------------------------------------------------
B|-----------------------10---------10---------10---------10--
G|--11--11--9--9--9--11------9--11------9--11------9--11------
D|------------------------------------------------------------
A|------------------------------------------------------------
E|------------------------------------------------------------

http://www.guitartabcreator.com
Guitar Tab Creator is intended to store guitar tab created through the tool. It currently does not support in-line text editing. Any text you place in here will be lost. If you need to comment on your tab, please use the "Tab Notes" section located below.