Keep Me Breathing

(/) Slide Up  (\) Slide Down  (h) Hammer On  (p) Pull Off  (b) Bend (r) Release (v) Vibrato


E|--------------------------------------------------
B|--------------------------------------------------
G|--------------------3--1--------------------3--5--
D|--------------------3--1--------------------3--5--
A|--------------------1--0--------------------1--3--
E|--0--0--0--3--0--0--------0--0--0--3--0--0--------



E|--------------------------------------------------------------
B|--------------------------------------------------------------
G|--------2--2--2--------3--3--3--------3--3--3--------3--3--3--
D|--------2--2--2--------3--3--3--------3--3--3--------3--3--3--
A|--0--0--0--0--0--5--5--1--1--1--0--0--1--1--1--5--5--1--1--1--
E|--0--0-----------5--5-----------0--0-----------5--5-----------
http://www.guitartabcreator.com
Guitar Tab Creator is intended to store guitar tab created through the tool. It currently does not support in-line text editing. Any text you place in here will be lost. If you need to comment on your tab, please use the "Tab Notes" section located below.