Yesternight - Gungor

(/) Slide Up  (\) Slide Down  (h) Hammer On  (p) Pull Off  (b) Bend (r) Release (v) Vibrato
E|--3--------2--3--------2--3--------2--3--5--2--------------0-----0--2-----------------------
B|-----1-----------1-----------1-----------------3-----3--------3--------1--------------------
G|-----------------------------------------------------------------------------2-----2-----2--
D|--------------------------------------------------0-----0-----0-----0-----0-----0-----0-----
A|--0-----0-----0-----0-----0-----0-----------------------------------------------------------
E|--------------------------------------------------------------------------------------------



E|--1--------0--1--------0--1--------0--1--3--0-----------------------0-----------------------
B|-----0-----------0-----------0-----------------------------3--1--3-----0--------------------
G|-----------------------------------------------0-----0-----------------------1-----2-----3--
D|--0-----0-----0-----0-----0-----0-----0-----------------------------------2-----2-----2-----
A|--------------------------------------------------3-----3-----3-----------------------------
E|--------------------------------------------------------------------------------------------



E|--------------------------------------------------------------------------------------------------
B|--------1-----------1-----------1-----------1--------1-----1-----1-----1-----1-----1-----1-----1--
G|-----2-----2-----2-----2-----2-----2-----2-----2--------2-----------2-----------2-----------2-----
D|--------------------------------------------------------------------------------------------------
A|--0-----------0-----------0-----------0-----------0-----------0-----------0-----------0-----------
E|--------------------------------------------------------------------------------------------------



E|--------------------------------------------------------------------------------------------------
B|--------0-----------0-----------0-----------0-----------0-----------0-----------0-----------0-----
G|--------------------------------------------------------------------------------------------------
D|-----2-----2-----2-----2-----2-----2-----2-----2-----2-----2-----2-----2-----2-----2-----2-----2--
A|--------------------------------------------------------------------------------------------------
E|--4-----------4-----------4-----------4-----------4-----------4-----------4-----------4-----------



E|--------------------------------------------------------------------------------------------------
B|--------2-----------2-----------2-----------2-----------2-----------2-----------2-----------2-----
G|-----2-----2-----2-----2-----2-----2-----2-----2-----2-----2-----2-----2-----2-----2-----2-----2--
D|--------------------------------------------------------------------------------------------------
A|--0-----------0-----------0-----------0-----------0-----------0-----------0-----------0-----------
E|--------------------------------------------------------------------------------------------------



E|--------------------------------------------------------------------------------------------------
B|--------------------------------------------------------3-----------3-----------3-----------3-----
G|--------2-----------2-----------2-----------2-----------------------------------------------------
D|-----0-----0-----0-----0-----0-----0-----0-----0-----0-----0-----0-----0-----0-----0-----0-----0--
A|--------------------------------------------------------------------------------------------------
E|--2-----------2-----------2-----------2-----------2-----------2-----------2-----------2-----------
http://www.guitartabcreator.com
Guitar Tab Creator is intended to store guitar tab created through the tool. It currently does not support in-line text editing. Any text you place in here will be lost. If you need to comment on your tab, please use the "Tab Notes" section located below.