Rayman: The Dream Forest

(/) Slide Up  (\) Slide Down  (h) Hammer On  (p) Pull Off  (b) Bend (r) Release (v) Vibrato

E|------------------------------------------------------------------5--5--------
B|-----------------------11--11--11--11--13--11--10--9--8--7--6--4--------5--6--
G|--8--8--10--11--10--8---------------------------------------------------------
D|------------------------------------------------------------------------------
A|------------------------------------------------------------------------------
E|------------------------------------------------------------------------------



E|-------------------------------------------12--12--11--12--9--14--14--13--14--
B|-----------------------11--11--10--11-----------------------------------------
G|--8--8--10--11--10--8------------------10-------------------------------------
D|------------------------------------------------------------------------------
A|------------------------------------------------------------------------------
E|------------------------------------------------------------------------------



E|--12--10--8--10--12--14--13--
B|-----------------------------
G|-----------------------------
D|-----------------------------
A|-----------------------------
E|-----------------------------
http://www.guitartabcreator.com
Guitar Tab Creator is intended to store guitar tab created through the tool. It currently does not support in-line text editing. Any text you place in here will be lost. If you need to comment on your tab, please use the "Tab Notes" section located below.