Flyleaf - Great Love (Old Fingering)

(/) Slide Up  (\) Slide Down  (h) Hammer On  (p) Pull Off  (b) Bend (r) Release (v) Vibrato
E|-----------------------------------------------------------------------------------------------
B|-14-14-14-14-14-14-14-14-14-14-14-14-14-14-14-x-14-14-14-14-14-14-14-14-14-14-14-14-17-17-17-x-
G|-14-14-14-14-14-14-14-14-14-14-14-14-14-14-14-x-14-14-14-14-14-14-14-14-16-16-16-14-14-14-14-x-
D|-14-14-14-14-14-14-14-14-14-14-14-14-14-14-14-x-16-16-16-16-16-16-16-16-16-16-16-16-16-16-16-x-
A|------------------------------------------------16-16-16-16-16-16-16-16-16-16-16-16-16-16-16-x-
E|------------------------------------------------14-14-14-14-14-14-14-14-14-14-14-14-14-14-14-x-



E|--------------------------------------------------------------------------------
B|--14--14--14--14--14--14--14--14--14--14--14--14--------------------------------
G|--14--14--14--14--14--14--14--14--14--14--14--14--------------------------------
D|--14--14--14--14--14--14--14--14--14--14--14--14--------4--4--4--4--4--4--4--4--
A|--------------------------------------------------------4--4--4--4--4--4--4--4--
E|--------------------------------------------------14\0--2--2--2--2--2--2--2--2--



E|--
B|--
G|--
D|--
A|--
E|--
http://www.guitartabcreator.com
Guitar Tab Creator is intended to store guitar tab created through the tool. It currently does not support in-line text editing. Any text you place in here will be lost. If you need to comment on your tab, please use the "Tab Notes" section located below.