Flyleaf - Great Love (New Fingering)

(/) Slide Up  (\) Slide Down  (h) Hammer On  (p) Pull Off  (b) Bend (r) Release (v) Vibrato
E|-9--9--9--9--9--9--9--9--9--9--9--9--9--9--9--9--x-9--9--9--9--9--9--9--9--9--9--9--9--12-12-12-x-
B|-10-10-10-10-10-10-10-10-10-10-10-10-10-10-10-10-x-10-10-10-10-10-10-10-10-12-12-12-10-10-10-10-x-
G|-9--9--9--9--9--9--9--9--9--9--9--9--9--9--9--9--x-11-11-11-11-11-11-11-11-11-11-11-11-11-11-11-x-
D|---------------------------------------------------11-11-11-11-11-11-11-11-11-11-11-11-11-11-11-x-
A|---------------------------------------------------9--9--9--9--9--9--9--9--9--9--9--9--9--9--9--x-
E|--------------------------------------------------------------------------------------------------



E|--9---9---9---9---9---9---9---9---9---9---9---9--------------------------------
B|--10--10--10--10--10--10--10--10--12--12--12--12-------------------------------
G|--11--11--11--11--11--11--11--11--11--11--11--11-------------------------------
D|--11--11--11--11--11--11--11--11--11--11--11--11-------4--4--4--4--4--4--4--4--
A|--9---9---9---9---9---9---9---9---9---9---9---9---9\0--4--4--4--4--4--4--4--4--
E|-------------------------------------------------------2--2--2--2--2--2--2--2--



E|--------------------------------------------------------------------------9--9--9--7--7--5--7\0--
B|--2--2--2--2--2--2--2--2--2--2--2--2--2--2--2--2--5--5--5--5--5--5--5--5-------------------------
G|--2--2--2--2--2--2--2--2--2--2--2--2--2--2--2--2--4--4--4--4--4--4--4--4-------------------------
D|--4--4--4--4--4--4--4--4--4--4--4--4--4--4--4--4--6--6--6--6--6--6--6--6-------------------------
A|--5--5--5--5--5--5--5--5--5--5--5--5--5--5--5--5--7--7--7--7--7--7--7--7-------------------------
E|--2--2--2--2--2--2--2--2--2--2--2--2--2--2--2--2--4--4--4--4--4--4--4--4-------------------------



E|--------------------------------------------------------------------------------------------------------
B|--3--3--3--3--3--3--3--3--3--3--3--3--3--3--3--3--3--3--3--3--3--3--3--3--3-----------------------------
G|--4--4--4--4--4--4--4--4--4--4--4--4--4--4--4--4--2--2--2--2--2--2--2--2--2--11--11--9--11--11--11--11--
D|--4--4--4--4--4--4--4--4--4--4--4--4--4--4--4--4--4--4--4--4--4--4--4--4--4-----------------------------
A|--2--2--2--2--2--2--2--2--2--2--2--2--2--2--2--2--5--5--5--5--5--5--5--5--5-----------------------------
E|--------------------------------------------------------------------------------------------------------



E|-9--9--9--9--9--9--9--9--9--9--9--9--9--9--9--9--
B|-10-10-10-10-10-10-10-10-10-10-10-10-10-10-10-10-
G|-11-11-11-11-11-11-11-11-11-11-11-11-11-11-11-11-
D|-11-11-11-11-11-11-11-11-11-11-11-11-11-11-11-11-
A|-9--9--9--9--9--9--9--9--9--9--9--9--9--9--9--9--
E|-------------------------------------------------
http://www.guitartabcreator.com
Guitar Tab Creator is intended to store guitar tab created through the tool. It currently does not support in-line text editing. Any text you place in here will be lost. If you need to comment on your tab, please use the "Tab Notes" section located below.