riff 1

(/) Slide Up  (\) Slide Down  (h) Hammer On  (p) Pull Off  (b) Bend (r) Release (v) Vibrato


E|--------------------------------------------------------
B|--------------------------------------------------------
G|-----------------------------------------3--3--5--5--3--
D|--5--5--3--3-----------------5--5--3--3-----------------
A|--------------3--3--1--1--3-----------------------------
E|--------------------------------------------------------



E|---------------------------------------------------------------------
B|---------------------------------------------------------------------
G|---------------------------------------------------------------------
D|--3h5--5--5--5--3-----3----------------------------------------------
A|-------------------5-----5--3--5--1h3--3--3--3--1-----1--0-----------
E|---------------------------------------------------3--------1--0-----
http://www.guitartabcreator.com
Guitar Tab Creator is intended to store guitar tab created through the tool. It currently does not support in-line text editing. Any text you place in here will be lost. If you need to comment on your tab, please use the "Tab Notes" section located below.